Se connecter / S'enregistrer
Votre question

Guitar pro (réduire demi-ton)

Tags :
  • guitare
  • Logiciels
Dernière réponse : dans Logiciels
Anonyme
a b 6 Logiciels
16 Janvier 2009 22:44:48

Salut tout le monde!
J'ai un problème avec guitar pro: J'ai téléchargé une tablature avec tout les instruments désacordés d'un demi-ton vers le bas. Et j'aimerai la rétablir en un "accordage classique" (Sans changer la structure) Je m'explique: ^^'
Si par exemple, j'ai cela comme tablature:
/----------------------------------------
/-------------------12-------------------
/-----------11--------------------------- (désacordé d'un demi-ton vers le bas)
/----9------------------------9----------
/----------------------------------------
/----------------------------------------

J'aimerai la transposer comme ça:
/----------------------------------------
/-------------------11-------------------
/-----------10--------------------------- (accordage classique)
/----8------------------------8----------
/----------------------------------------
/----------------------------------------

Mais sans devoir diminuer d'un demi-ton toutes les notes unes par unes.^^
J'ai déjà essayié avec le bouton "transposer" puis en ayant changer l'accordage de la guitare, cela donne toujours les bonne notes mais la structure n'est plus la même...

Avec "transposer", on obtient:
/------------0-------5-------------------
/----------------------------------------
/----2-----------------------2-----------
/----------------------------------------
/----------------------------------------
/----------------------------------------

Donc j'en revient à vous :p  Si quelqu'un connais une technique pour diminuer d'un demi ton toute une tablature en gardant la même "structure" je serai ravi d'accepter son aide :D 

Merci d'avance

Autres pages sur : guitar pro reduire demi

Anonyme
a b 6 Logiciels
17 Janvier 2009 15:27:29

petit up! s'il vous plait les gars...
m
0
l
Tom's guide dans le monde
  • Allemagne
  • Italie
  • Irlande
  • Royaume Uni
  • Etats Unis
Suivre Tom's Guide
Inscrivez-vous à la Newsletter
  • ajouter à twitter
  • ajouter à facebook
  • ajouter un flux RSS